Jump to content
Sign in to follow this  
geo182

[Guitare] Tablatures Rosenrot

Recommended Posts

si vous avez des tablatures de Rosenrot, vous pouvez les poster ici.

moi j'ai quelques tabs:

Benzin - guitar tab

INTRO

------------------------------------------------------------l

------------------------------------------------------------l

------------------------------------------------------------l

---5--4-------5--4-----8-------5--4----5--4------------l

--------------------------------------------------3---------l

-------------------------------------------------------------l

RIFF PRINCIPAL

à jouer très rapidement

---------------------------------------------------------------------------------

---------------------------------------------------------------------------------

---------------------------------------------------------------------------------

-5-5-5-5-5-5-5-5--4-4-4-4-4-4-4-4--5-5-5-5-5-5-5-5--4-4-4-4--8-8

-5-5-5-5-5-5-5-5--4-4-4-4-4-4-4-4--5-5-5-5-5-5-5-5--4-4-4-4--8-8

-3-3-3-3-3-3-3-3--2-2-2-2-2-2-2-2--3-3-3-3-3-3-3-3--2-2-2-2--6-6

Ein Lied - bass tab

(merci à "Fan2Rammstein" du forum de PlanetRammstein)

F #---------10------------10--------------9-------------9--------------12-------------12---------------9-------------9--------||

C#------12----12----12-----11-----11----11-----11----11------14-----14------14-----11------11----11----11----11--°||

G#--12------------12------------12-------------12------------14-------------14--------------12------------12--------------°||

C#------------------------------------------------------------------------------------------------------------------------------------||

SYNCOPE (2mn07s)

F #-------------------------------------------------------------------------------------

C#-------------------------------------------------------------------------------------

G#-------------------------------------------------------------------------------------

C#-0------2------5-0------2------3--7--2--2(étouffée)--3--7--2--2(étouffée)--

Rosenrot - bass tab (peut être adapté sur une guitare)

(merci à Elvis)

INTRO

----------------------------------------------------------------------------------------------------

----------------------------------------------------------------------------------------------------

----------------------------------------------------------------------------------------------------

-8-8-8-8-8-8-8-8-4-4-4-4-4-4-4-4-8-8-8-8-8-8-8-8-4-4-4-4-4-4-4-4-11-11-11-11-

répéter plusieurs fois

Mann gegen Mann - guitar tab

REFRAIN

0--0-8---0--0-5--0-3--5

0--0-8---0--0-5--0-3--5

0--0-8---0--0-5--0-3--5

Share this post


Link to post
Share on other sites

<Intro de Rosenrot

sur la grosse corde

8-8-8-8-8-8-8-8-4-4-4-4-4-4-4-4-8-8-8-8-8-8-8-8-4-4-4-4-4-4-4-4-11-11-11-11-8-8-8-8-8-8-8-8-4-4-4-4-4-4-4-4-8-8-8-8-8-8-8-8-4-4-4-4-4-4-4-4-11-11-11-11

et ainsi de suite!

Share this post


Link to post
Share on other sites
<Intro de Rosenrot

sur la grosse corde

8-8-8-8-8-8-8-8-4-4-4-4-4-4-4-4-8-8-8-8-8-8-8-8-4-4-4-4-4-4-4-4-11-11-11-11-8-8-8-8-8-8-8-8-4-4-4-4-4-4-4-4-8-8-8-8-8-8-8-8-4-4-4-4-4-4-4-4-11-11-11-11

et ainsi de suite!

merci, je le note, mais comme c'est de la basse sur le CD, je note que c'est une tab de basse ;)

Edit:

refrain de Mann gegen Mann

0--0-8---0--0-5--0-3--5

0--0-8---0--0-5--0-3--5

0--0-8---0--0-5--0-3--5

Share this post


Link to post
Share on other sites

Stirb nicht vor mir

|----------------------------------------------------------------------------------------|

|--------10--------------10---------------10---------------10---------------10----|

|---11----11--------11----11---------11----11---------11----11-------11---11-|

|-12---------------12---------------11---------------11---------------12------------|

|----------------------------------------------------------------------------------------|

|----------------------------------------------------------------------------------------|

|----------------------------------------------------------------------------------------|

|-------10------------------------------------------------------------------------------|

|----11---11---------------------------------------------------------------------------|

|-12---------------9-11--12--11----9-11--12--------------------------------------|

|--------------------------------------------------12-----------------------------------|

|----------------------------------------------------------------------------------------|

Ein Lied

|---------------------------------------------------------------------------------------|

|---------------------------------------------------------------------------------------|

|---------------------------------------------------------------------------------------|

|-----3---------3---------2---------2---------5---------5---------2---------2-------|

|---3---3-----3---3----3---3-----3---3-----3---3-----3--3-----2---2-----2---2--|

|-1---------1---------0---------0----------0---------0---------0---------0----------|

Share this post


Link to post
Share on other sites

juste une question , vous restez toujours en accordage standard et drop d ? ou vous descendez en drop c ? parce que c'est largement plus facile en drop c comme eux , j'ai comme l'impression que vous cherchez la complication lol.

Share this post


Link to post
Share on other sites
Stirb nicht vor mir

|----------------------------------------------------------------------------------------|

|--------10--------------10---------------10---------------10---------------10----|

|---11----11--------11----11---------11----11---------11----11-------11---11-|

|-12---------------12---------------11---------------11---------------12------------|

|----------------------------------------------------------------------------------------|

|----------------------------------------------------------------------------------------|

|----------------------------------------------------------------------------------------|

|-------10------------------------------------------------------------------------------|

|----11---11---------------------------------------------------------------------------|

|-12---------------9-11--12--11----9-11--12--------------------------------------|

|--------------------------------------------------12-----------------------------------|

|----------------------------------------------------------------------------------------|

Ein Lied

|---------------------------------------------------------------------------------------|

|---------------------------------------------------------------------------------------|

|---------------------------------------------------------------------------------------|

|-----3---------3---------2---------2---------5---------5---------2---------2-------|

|---3---3-----3---3----3---3-----3---3-----3---3-----3--3-----2---2-----2---2--|

|-1---------1---------0---------0----------0---------0---------0---------0----------|

nondedieunondedieunondedieu......Je fais ça demain !!! y'a pas moyen !!! Merci beaucoup !!!!!

Share this post


Link to post
Share on other sites

Stirb nicht vor mir

nondedieunondedieunondedieu......Je fais ça demain !!! y'a pas moyen !!! Merci beaucoup !!!!!

Stirb nicht vor mir

|----------------------------------------------------------------------------------------|

|--------10--------------10---------------10---------------10---------------10----|

|---11----11--------11----11---------11----11---------11----11-------11---11-|

|-12---------------12---------------11---------------11---------------12------------|

|----------------------------------------------------------------------------------------|

|----------------------------------------------------------------------------------------|

|----------------------------------------------------------------------------------------|

|-------10------------------------------------------------------------------------------|

|----11---11---------------------------------------------------------------------------|

|-12---------------9-11--12--11----9-11--12--------------------------------------|

|--------------------------------------------------12-----------------------------------|

|----------------------------------------------------------------------------------------|

Ein Lied

|---------------------------------------------------------------------------------------|

|---------------------------------------------------------------------------------------|

|---------------------------------------------------------------------------------------|

|-----3---------3---------2---------2---------5---------5---------2---------2-------|

|---3---3-----3---3----3---3-----3---3-----3---3-----3--3-----2---2-----2---2--|

|-1---------1---------0---------0----------0---------0---------0---------0----------|

De rien ! ;)

Share this post


Link to post
Share on other sites

J'ai joué ces deux tab ce matin.....AAARF, C'est tellement bien de pouvoir jouer Stirb nicht vor mir !!!

PS : Pour ein Lied c'st l'accordage standart ? Ou il est en drop ? Parce que ça donne pas exactement la même chose que sur le CD.... ;)

Share this post


Link to post
Share on other sites

snif moi j'attends toujours un âme généreuse pour le synthé sur gp4 mais bon je peux toujours attendre

Share this post


Link to post
Share on other sites
J'ai joué ces deux tab ce matin.....AAARF, C'est tellement bien de pouvoir jouer Stirb nicht vor mir !!!

PS : Pour ein Lied c'st l'accordage standart ? Ou il est en drop ? Parce que ça donne pas exactement la même chose que sur le CD.... ;)

drop

Share this post


Link to post
Share on other sites
Stirb nicht vor mir

|----------------------------------------------------------------------------------------|

|--------10--------------10---------------10---------------10---------------10----|

|---11----11--------11----11---------11----11---------11----11-------11---11-|

|-12---------------12---------------11---------------11---------------12------------|

|----------------------------------------------------------------------------------------|

|----------------------------------------------------------------------------------------|

|----------------------------------------------------------------------------------------|

|-------10------------------------------------------------------------------------------|

|----11---11---------------------------------------------------------------------------|

|-12---------------9-11--12--11----9-11--12--------------------------------------|

|--------------------------------------------------12-----------------------------------|

|----------------------------------------------------------------------------------------|

sur le CD c'est moins aigu que ça

Share this post


Link to post
Share on other sites
Stirb nicht vor mir

|----------------------------------------------------------------------------------------|

|--------10--------------10---------------10---------------10---------------10----|

|---11----11--------11----11---------11----11---------11----11-------11---11-|

|-12---------------12---------------11---------------11---------------12------------|

|----------------------------------------------------------------------------------------|

|----------------------------------------------------------------------------------------|

|----------------------------------------------------------------------------------------|

|-------10------------------------------------------------------------------------------|

|----11---11---------------------------------------------------------------------------|

|-12---------------9-11--12--11----9-11--12--------------------------------------|

|--------------------------------------------------12-----------------------------------|

|----------------------------------------------------------------------------------------|

sur le CD c'est moins aigu que ça

Oui un tout petit peu mais j'ai fais ca vite fais mais moi jtrouve que ca y ressemble.

Share this post


Link to post
Share on other sites

Mann Gegen Mann !

Intro Bass (Oli Riedel) + Till

F I--------------------------------------------------------------I

C I--------------------------------------------------------------I

G I--------------------------------------------------------------I

C I--0--8--0--5--3--5----0--8--0--5--3--5------------------------I

Riff 1 (Richard & Paul)

d I--------------------------------------------------------------I

a I--------------------------------------------------------------I

F I--------------------------------------------------------------I

C I--0--8--0--5-5--0p3-5-----0--8--0--5-5--0p3--5----------------I

G I--0--8--0--5-5--0p3-5-----0--8--0--5-5--0p3--5----------------I

C I--0--8--0--5-5--0p3-5-----0--8--0--5-5--0p3--5----------------I

(Riff 1 - clean)

Riff 2 (Richard & Paul)

d I--------------------------------------------------------------I

a I--------------------------------------------------------------I

F I--------------------------------------------------------------I

C I--10h12-12--10h12-12--10-12-12---10h12-12--10h12-12--10-12-12-I

G I--10h12-12--10h12-12--10-12-12---10h12-12--10h12-12--10-12-12-I

C I--10h12-12--10h12-12--10-12-12---10h12-12--10h12-12--10-12-12-I

d I--------------------------------------------------------------I

a I--------------------------------------------------------------I

F I--------------------------------------------------------------I

C I--10p8-8--10p8-8--10-8-8--10p8-8--10p8-8--10-8-8--------------I

G I--10p8-8--10p8-8--10-8-8--10p8-8--10p8-8--10-8-8--------------I

C I--10p8-8--10p8-8--10-8-8--10p8-8--10p8-8--10-8-8--------------I

(+ keyboard solo)

Riff 3 (clean part - Paul)

d I------------------------------------------I

a I----------6-------6-------5-------5-------I

F I--------7---7---7---7---7---7---7---7-----I

C I------7-------7-------5-------5-----------I

G I------------------------------------------I

C I------------------------------------------I

d I------------------------------------------I

a I----------6-------6-------5-------5-------I

F I--------7---7---7---7---7---7---7---7-----I

C I------7-------7-------5-------5-----------I

G I------------------------------------------I

C I------------------------------------------I

Riff 4 (P.M. lighter dist.guitar - Richard) (Riff 3 + Riff 4)

d I------------------------------------------I

a I------------------------------------------I

F I------------------------------------------I

C I---0-0-0--8-8-8--0-0-0--5-5-5--3-3--5-5---I

G I---0-0-0--8-8-8--0-0-0--5-5-5--3-3--5-5---I

C I---0-0-0--8-8-8--0-0-0--5-5-5--3-3--5-5---I

d I------------------------------------------I

a I------------------------------------------I

F I------------------------------------------I

C I---0-0-0--8-8-8--0-0-0--5-5-5--3-3--5-5---I

G I---0-0-0--8-8-8--0-0-0--5-5-5--3-3--5-5---I

C I---0-0-0--8-8-8--0-0-0--5-5-5--3-3--5-5---I

Riff 1 (Richard & Paul)

d I--------------------------------------------------------------I

a I--------------------------------------------------------------I

F I--------------------------------------------------------------I

C I--0--8--0--5-5--0p3-5-----0--8--0--5-5--0p3--5----------------I

G I--0--8--0--5-5--0p3-5-----0--8--0--5-5--0p3--5----------------I

C I--0--8--0--5-5--0p3-5-----0--8--0--5-5--0p3--5----------------I

Rosenrot

Intro - Bass (Oli Riedel)

F I------------------------------------------------I

C I------------------------------------------------I

G I------------------------------------------------I

C I--12-12-12-12-12-12-12-12----8-8-8-8-8-8-8-8----I

F I------------------------------------------------I

C I------------------------------------------------I

G I---------------------------------------8-8-8----I

C I--12-12-12-12-12-12-12-12----8-8-8-8-8----------I

Riff 1 (main theme)

d I-------------------------------------------------I

a I-------------------------------------------------I

F I-------------------------------------------------I

C I--12-12-12-12-12-12-12-12--8-8-8-8-8-8-8-8-------I

G I--12-12-12-12-12-12-12-12--8-8-8-8-8-8-8-8-------I

C I--12-12-12-12-12-12-12-12--8-8-8-8-8-8-8-8-------I

d I-------------------------------------------------I

a I-------------------------------------------------I

F I--------------------------------------10-10-10---I

C I--12-12-12-12-12-12-12-12--8-8-8-8-8--10-10-10---I

G I--12-12-12-12-12-12-12-12--8-8-8-8-8---8--8--8---I

C I--12-12-12-12-12-12-12-12--8-8-8-8-8-------------I

Riff 2

d I-------------------------------------------------I

a I-------------------------------------------------I

F I-------------------------------------------------I

C I--12-10-0-12-10-0-12-10--13-10-0-13-10-0-13-10---I

G I--12-10-0-12-10-0-12-10--13-10-0-13-10-0-13-10---I

C I--12-10-0-12-10-0-12-10--13-10-0-13-10-0-13-10---I

d I-------------------------------------------------I

a I-------------------------------------------------I

F I-------------------------------------------------I

C I--12-10-0-12-10-0-12-10--10-8-0-10-8-0-10-8--(12)I

G I--12-10-0-12-10-0-12-10--10-8-0-10-8-0-10-8--(12)I

C I--12-10-0-12-10-0-12-10--10-8-0-10-8-0-10-8--(12)I

Zerstören

Riff 1 (main riff) (Paul & Richard)

d I--------------------------------------------------------------I

a I--------------------------------------------------------------I

F I--------------------------------------------------------------I

C I--4--1--1--0--1--1--0---0h1~---1~---1---0--0--1--0------------I

G I--4--1--1--0--1--1--0---0h1~---1~---1---0--0--1--0------------I

C I--4--1--1--0--1--1--0---0h1~---1~---1---0--0--1--0------------I

Riff 2 - little different (play with heavy palm mutting P.M.)

0:35

d I---------------------------------------------------------I

a I---------------------------------------------------------I

F I---------------------------------------------------------I

C I--4--1--1--0--1----0---1---1---1---0--0--1--0------------I

G I--4--1--1--0--1----0---1---1---1---0--0--1--0------------I

C I--4--1--1--0--1----0---1---1---1---0--0--1--0------------I

Riff 3

1:13

´´Doch es darf nicht mir gehören´´

(Paul) d I---------------------------------------------------------I

a I---------------------------------------------------------I

F I---------------------------------------------------------I

C I--2-2-2-2-2-2-2-2-2-2-2-2-2-2-2-2------------------------I

G I--2-2-2-2-2-2-2-2-2-2-2-2-2-2-2-2------------------------I

C I--2-2-2-2-2-2-2-2-2-2-2-2-2-2-2-2------------------------I

I

I

I

(Rich) d I---------------------------------------------------------I

a I---------------------------------------------------------I

F I---------------------------------------------------------I

C I--9-9-9-9-9-9-9-9-9-9-9-9-9-9-9-9------------------------I

G I--7-7-7-7-7-7-7-7-7-7-7-7-7-7-7-7------------------------I

C I---------------------------------------------------------I

1:24 (riff 3 continue)

1:27

´´Nein´´

(Paul) d I---------------------------------------------------------I

a I---------------------------------------------------------I

F I---------------------------------------------------------I

C I--6-6-6-6-6-6-6-6-6-6-6-6-6-6-6-6------------------------I

G I--6-6-6-6-6-6-6-6-6-6-6-6-6-6-6-6------------------------I

C I--6-6-6-6-6-6-6-6-6-6-6-6-6-6-6-6------------------------I

I

I

I

(Rich) d I---------------------------------------------------------I

a I---------------------------------------------------------I

F I---------------------------------------------------------I

C I--13-13-13-13-13-13-13-13-13-13-13-13-13-13-13-13--------I

G I--11-11-11-11-11-11-11-11-11-11-11-11-11-11-11-11--------I

C I---------------------------------------------------------I

Riff 4

2:00

d I---------------------------------------------------------I

a I---------------------------------------------------------I

F I---------------------------------------------------------I

C I--1-1--------1-1--------1-1------------------------------I

G I--1-1--7b~~--1-1--7b~~--1-1--7b~~--7b~~--7b~~------------I

C I--1-1--------1-1--------1-1------------------------------I

i´m not sure about this part ;)

Riff 5

2:54

´´Ich würde gern etwas zerstören . . . Doch das verlangen holt mich ein´´

d I--------------------------------------------------------------------I

a I--------------------------------------------------------------------I

F I--------------------------------------------------------------------I

C I---11-----9-----14-----13-----11-----6-----------------6--6--6--6---I

G I---11-----9-----14-----13-----11-----6-----------------6--6--6--6---I

C I---11-----9-----14-----13-----11-----6-----------------6--6--6--6---I

Riff 6

3:37

d I------------------------------------------------------------I

a I------------------------------------------------------------I

F I------------------------------------------------------------I

C I--4--1--1--0--1--1--0--0--0--1--1--1--0--0--1--0------------I

G I--4--1--1--0--1--1--0--0--0--1--1--1--0--0--1--0------------I

C I--4--1--1--0--1--1--0--0--0--1--1--1--0--0--1--0------------I

Merci a ultimate-guitar !

Share this post


Link to post
Share on other sites

je comprends pas a quoi ça sert de mettre dans un post les tabs qui sont dans le lien mais bon ...

ça doit etre pour ceux qui arrivent pas à cliquer :D1

Share this post


Link to post
Share on other sites
je comprends pas a quoi ça sert de mettre dans un post les tabs qui sont dans le lien mais bon ...

ça doit etre pour ceux qui arrivent pas à cliquer 

Désolé c'est parce que je n'ai pas vu ton message et comme j'avait vu le lien avant je les ai mis et comme j'ai vu aprés que tu avais mis le lien ... :D1

Share this post


Link to post
Share on other sites
quelqu'un aurait le solo de Zerstoeren ? parceque j'ai vu 2/3 tabs mais le solo trés aïgue à la fin n'y figure pas :huh:

hummm, pas besoin de le faire aigu , richard utilise un effet ( me semble que c le whammy)

Share this post


Link to post
Share on other sites
Stirb nicht vor mir

|----------------------------------------------------------------------------------------|

|--------10--------------10---------------10---------------10---------------10----|

|---11----11--------11----11---------11----11---------11----11-------11---11-|

|-12---------------12---------------11---------------11---------------12------------|

|----------------------------------------------------------------------------------------|

|----------------------------------------------------------------------------------------|

|----------------------------------------------------------------------------------------|

|-------10------------------------------------------------------------------------------|

|----11---11---------------------------------------------------------------------------|

|-12---------------9-11--12--11----9-11--12--------------------------------------|

|--------------------------------------------------12-----------------------------------|

|----------------------------------------------------------------------------------------|

sur le CD c'est moins aigu que ça

moi j'ai trouver ça :

---------5---------5---------5---------5---------5---------5-----

------7----7----7----7---7----7----7----7----7---7-----7----7--

---7---------7------ ---6---------6---------7---------7---------

------------------------------------------------------------------

------------------------------------------------------------------

-----------------------------------------------------------------

----------------------------------------

--------2/3--------2/3----------------

----4----------4-----------------------

-----------------------------------------

----------------------------------------

----------------------------------------

et en standart,ça donne pareil que sur le cd (à moins que j'ai l'oreille défectueuse..lol)

Share this post


Link to post
Share on other sites
quelqu'un aurait le solo de Zerstoeren ? parceque j'ai vu 2/3 tabs mais le solo trés aïgue à la fin n'y figure pas :huh:

hummm, pas besoin de le faire aigu , richard utilise un effet ( me semble que c le whammy)

oui si tu veux....n'empeche qu'il n'est pas dans les tabs que j'ai vu alors j'essayerais de trouver...:D1 j'adore ce soloOo...

Share this post


Link to post
Share on other sites

QUOTE (Фран

@ 05 November 2005 17:31)

J'comprends rien c'est même plus des notes lol mais ça se lit comment ?? (je m'intéresse ^^) :mrgreen:

ben les chiffres correspondent aux numéros des cases de la guitare et des les 6 lignes que tu vois,celle tt en haut représente la corde aïgue et celle tt en bas représente la corde grave (dc en gros ça se lit à l'envers ;) )

Share this post


Link to post
Share on other sites

Join the conversation

You can post now and register later. If you have an account, sign in now to post with your account.

Guest
Reply to this topic...

×   Pasted as rich text.   Paste as plain text instead

  Only 75 emoji are allowed.

×   Your link has been automatically embedded.   Display as a link instead

×   Your previous content has been restored.   Clear editor

×   You cannot paste images directly. Upload or insert images from URL.

Sign in to follow this  

×
×
  • Create New...