Jump to content

Tablatures de Rammstein


Recommended Posts

Voilà étant donné le nombre de topics de demandes concernant des tablatures de Rammstein, je crée un topic unique qui regroupera toutes les demandes sur les tablatures du groupe.

À vos guitares !

Link to post
Share on other sites
  • Replies 254
  • Created
  • Last Reply

Top Posters In This Topic

Voilà étant donné le nombre de topics de demandes concernant des tablatures de Rammstein, je crée un topic unique qui regroupera toutes les demandes sur les tablatures du groupe.

À vos guitares !

Super idée ! Merci ! :D

Link to post
Share on other sites
Moi j'aurais besoin de la tablature du solo de Links 2 3 4. :unsure:

Merci d'avance. :)

Voila ce qu'il te faut...

E-------------------------------------------------------|

B--------------10p0-12p0-10p0----------------------|

G-11p0-12p0---------------------12p0-11p0-12p0--|

D-------------------------------------------------------|

A-------------------------------------------------------|

E-------------------------------------------------------|

E----------------------------------------------------------|

B--------------10p0-12p0-10p0-------------------------|

G-11p0-12p0---------------------12p0-11p0-12p0-9~-|

D----------------------------------------------------------|

A----------------------------------------------------------|

E----------------------------------------------------------|

E-------------------------------------------------------|

B--------------10p0-12p0-10p0----------------------|

G-11p0-12p0---------------------12p0-11p0-12p0--|

D-------------------------------------------------------|

A-------------------------------------------------------|

E-------------------------------------------------------|

E-------------------------------------------------------------|

B--------------10p0-12p0-10p0----------------------12~--|

G-11p0-12p0---------------------12p0-11p0-12p0--------|

D-------------------------------------------------------------|

A-------------------------------------------------------------|

E-------------------------------------------------------------|

Link to post
Share on other sites

pour le solo de links c est celle la plutot non?

|------------7---------------------7----------------------|

|7--8--10-----10--8--7--8--10-----10--8--7--8-------|

|------------------------------------------------------9---|

|----------------------------------------------------------|

|----------------------------------------------------------|

|----------------------------------------------------------|

|------------7---------------------7------------------------|

|7--8--10-----10--8--7--8--10-----10--8--7--8--12----|

|------------------------------------------------------------|

|------------------------------------------------------------|

|------------------------------------------------------------|

|------------------------------------------------------------|

2x

Link to post
Share on other sites
J'ai une question ?

ne jouant d'aucun instrument de musique.

R+ est il techniquement difficile ? Ou les compositions de R+ sont elles facile d'accès pour des débutants ?

Non, techniquement c'est pas difficile, après pour être pile poil dans le rythme et tout, c'est une question d'enraînement...

Si tu viens tout juste de commencer la guitare, Rammstein n'est pas trop à conseiller. Il y a pas mal d'autres choses plus simples et plus interessantes pour le début à jouer, par contre si tu as quelques mois (voir quelques semaines si tu te débrouilles ou que tu es bien motivé) tu peux essayer :)

Link to post
Share on other sites

J'ai une question ?

ne jouant d'aucun instrument de musique.

R+ est il techniquement difficile ? Ou les compositions de R+ sont elles facile d'accès pour des débutants ?

Non, techniquement c'est pas difficile, après pour être pile poil dans le rythme et tout, c'est une question d'enraînement...

Si tu viens tout juste de commencer la guitare, Rammstein n'est pas trop à conseiller. Il y a pas mal d'autres choses plus simples et plus interessantes pour le début à jouer, par contre si tu as quelques mois (voir quelques semaines si tu te débrouilles ou que tu es bien motivé) tu peux essayer :)

J' ai commencé a gratter sur Rammstein, et nirvana ( smell like teen spirit tout le monde la prend pour commencer :D ) c' est largment abordable, en plus t'apprend rapidement le palm mute donc bon ;) sa entraine pour la vitesse aussi, mais il est vrai que des que t'as le rythme et les riffs en mains, ca va tous seul...

Link to post
Share on other sites
donc moi je cherche les tablatures de l'intro de Weisses Fleish

|---------------------------------------------------------|

|---7--7--7/8--7--7--7/8--7--7--7/8--7--7--7/8---|

|---6--6--6/7--6--6--6/7--6--6--6/7--6--6--6/7---|

|---4--4--4/5--4--4--4/5--4--4--4/5--4--4--4/5---|

|---------------------------------------------------------|

|---------------------------------------------------------|

X4

Link to post
Share on other sites
donc moi je cherche les tablatures de l'intro de Weisses Fleish

|---------------------------------------------------------|

|---7--7--7/8--7--7--7/8--7--7--7/8--7--7--7/8---|

|---6--6--6/7--6--6--6/7--6--6--6/7--6--6--6/7---|

|---4--4--4/5--4--4--4/5--4--4--4/5--4--4--4/5---|

|---------------------------------------------------------|

|---------------------------------------------------------|

X4

Merci

Est ce que quelqun peu m'y mettre en gp3? :oops:

si c'est faisable?

Link to post
Share on other sites
Merci pour le solo de links.

Voila je recherche le solo d'Herdzeleid si quelqu'un l'a. :)

Je te propose d'improviser dans la gamme pentatonique de fa#, c'est que richard fait en live. Sur l'album, il utilise beaucoup son wammie.

Link to post
Share on other sites

Merci pour le solo de links.

Voila je recherche le solo d'Herdzeleid si quelqu'un l'a. :)

Je te propose d'improviser dans la gamme pentatonique de fa#, c'est que richard fait en live. Sur l'album, il utilise beaucoup son wammie.

son wammie? kesako? :unsure:

Link to post
Share on other sites
son wammie? kesako? :unsure:

ça doit être ça....une pédale Digitech Whammy.....ou nen?

whammy.jpg

Et quelqu'un aurait trouvé le morceau dans le Völkerball, dans Links juste avant que Richard entame le solo..il fait une petite "variante" d'abord avec sa wah-wah....quelqu'un saurait?

Link to post
Share on other sites

Join the conversation

You can post now and register later. If you have an account, sign in now to post with your account.

Guest
Reply to this topic...

×   Pasted as rich text.   Paste as plain text instead

  Only 75 emoji are allowed.

×   Your link has been automatically embedded.   Display as a link instead

×   Your previous content has been restored.   Clear editor

×   You cannot paste images directly. Upload or insert images from URL.

×
×
  • Create New...