Jump to content
Sign in to follow this  
Pierrick

Tablatures de Rammstein

Recommended Posts

Achetez vous un livre directement avec les partoches :D

Je déconne :twisted:

Aussi non il y a du monde pour des partition (clés de sol + clés de fa quoi) des parties de synthé

Mirki

Share this post


Link to post
Share on other sites

ah il est facile! Moi je le fais comme ça

-----------------------------------------------------------------------------------------------------------------------------

-------------------~5---------------~8----------~3---~3-----------~5------------~10--------~12-------------~5------

-----------------------------------------------------------------------------------------------------------------------------

-----------------------------------------------------------------------------------------------------------------------------

-----------------------------------------------------------------------------------------------------------------------------

-----------------------------------------------------------------------------------------------------------------------------

-----------------------------------------------------------------------------------------------------------------------------

-------------~8--------------~3----~3-----------~5-------------0------------~1----------------------------------------

-----------------------------------------------------------------------------------------------------------------------------

-----------------------------------------------------------------------------------------------------------------------------

-----------------------------------------------------------------------------------------------------------------------------

-----------------------------------------------------------------------------------------------------------------------------

sur la corde SI bien sûr... :coucou:

Complètement faux!

---7h0--9h0--10h0--9h0--7h0--9h0--10h0--9h0--7h0--9h0--10h0--9h0--7h0--9h0--7h0--9h0--

----------------------------------------------------------------------------------------------------------

----------------------------------------------------------------------------------------------------------

----------------------------------------------------------------------------------------------------------

----------------------------------------------------------------------------------------------------------

----------------------------------------------------------------------------------------------------------

X3

ensuite

---7h0--9h0--10h0--9h0--7h0--9h0--10h0--9h0--------------------------------------------

--------------------------------------------------------7h0--8h0--10h0--8h0--5h0--7p8h7--

--------------------------------------------------------------------------------------------------

--------------------------------------------------------------------------------------------------

--------------------------------------------------------------------------------------------------

--------------------------------------------------------------------------------------------------

X1

Désolé je n'ai pas de solo d'Herzeleid.

relis le post avant de geuler! J'ai justement demandé si c'était celui de Richard ou Paul et Richard...et il me dit celui de Richard, alors je donne celui de Richard en wah wah. Pas celui de Paul et Richard!!

Share this post


Link to post
Share on other sites
relis le post avant de geuler! J'ai justement demandé si c'était celui de Richard ou Paul et Richard...et il me dit celui de Richard, alors je donne celui de Richard en wah wah. Pas celui de Paul et Richard!!

Wah! Il le joue quand ça?

Share this post


Link to post
Share on other sites

C'est pas plutôt 2m45? Si c'est ça je pense que le second solo que j'ai mis est correcte mais qu'il utilise une pédale. Je dis bien le second que j'ai mis, celui avec les slides.

Share this post


Link to post
Share on other sites

bon vveeeeefffff reste calme Olivier lol, je viens de faire un extrait parce que je crois que t'a toujours pas compris.....Alors descr. de l'extrait, d'abord bon intro là, après c'est ça que tu a donné! le solo de Richard et Paul! Et pour finir c'est lui là que rp37 voulait, celui de Richard tout seul en wah-wah! Alors viens pas me dire que t'a mis celui là! Toi c'est tout le premier de l'extrait que t'a donné, moi j'ai donné celui avec les slides. J'éspère que c'est clair maintenant?! :):ph34r:

Extrait (dsl pour la bad qualité)

Share this post


Link to post
Share on other sites

messieur du calme ^^, +1 pour Richard_Z il a raison ^^, mais j'avoue que 1 topic pour toutes les tabs c' est un peut galère :s

Share this post


Link to post
Share on other sites

je l'avoue aussi! C'est un peu le bordel :unsure: N'auriez-vous pas une autre solution? Moi j'ai déjà proposé l'ouverture de ce topic :D:lol:

Share this post


Link to post
Share on other sites

bah si tu penses la meme chose que moi ^^ 1 topic par chanson :P bon ca ferait beaucoup mais bon.. :rolleyes: quand on aime on ne compte pas :P

Share this post


Link to post
Share on other sites
bah si tu penses la meme chose que moi ^^ 1 topic par chanson :P bon ca ferait beaucoup mais bon.. :rolleyes: quand on aime on ne compte pas :P

Non, ça serait le bordel. On en a déjà parlé dans le topic Boîte à Idées. Si vous avez d'autres propositions c'ets là-bas qu'il faut les poster.

Sur ce, retour au sujet, les tabs à proprement parler :)

edit: grillé par Richard_Z :P

Share this post


Link to post
Share on other sites

roh c'est bon hein :P

bon pour éviter un hs ^^ personne n'aurait la tab de Stirb nicht vor mir ?

Share this post


Link to post
Share on other sites
bon pour éviter un hs ^^ personne n'aurait la tab de Stirb nicht vor mir ?

regarde voir ça:

Rp j'ai un bon truc pour toi...

le lien magique :rolleyes:

;)

ça vaut pour tout le monde :)

Share this post


Link to post
Share on other sites

t'es un pti rigolo ^^ y'a qu 'une tab dedans et c'est celle de rosenrot :/ si je demande c'est pas pour rien et comme ya un topic fait pour les tab je vois pas pourquoi tu me réponds ca :P

Share this post


Link to post
Share on other sites
t'es un pti rigolo ^^ y'a qu 'une tab dedans et c'est celle de rosenrot :/

Non, quand tu télécharges le fichier tu as plusieurs tabs, et je crois qu'il y a SNVM :)

edit: je viens de vérifier, elle y est bien ;)

Share this post


Link to post
Share on other sites

si moi :D

alors l'intro je le fais comme ça...et cela correspond tout a fait. :)

E------5-------5-------5-------5----------5-------5-------------------------------------------------

B---7---7---7---7---7---7---7---7----7---7---7---7---2--3--2---2--3--2-----------------------

G-7-------7-------6-------6--------7--------7--------4-----------4-----------2--------------6("monté")

D-------------------------------------------------------------------------------------------------------

A--------------------------------------------------------------------------------------------------------

E------------------------------------------------------------------------------------------------------

le reste :D

B F# G E

e----2---2---3---0---

B----3---2---3---0---

G----4---3---0---1---

D----4---4---0---2---

A----2---4---2---2---

E----2---2---3---0---

Share this post


Link to post
Share on other sites

de rien :) Je te dois bien ça!! :PB)

Un conseil pour toi Nrvn, avec le cube 30...tu mets tout les egalisateurs a fond, mode clean et micro position chevalet! Chez moi ca donne exactement le même son! Je m'y confondrais :D

Share this post


Link to post
Share on other sites

Merci !:D ca sonne super , en meme temps je pense que avec t'es EMG ca sonne "plus juste" par rapport à la chanson :P mes gibsons sonnent un peut plus chaleureusement ^^

Share this post


Link to post
Share on other sites

Aussi peut être que mes EMG y sont pour qqchoses :):lol:

J'en profite donc pour demander le refrain de Stein um Stein. :)

Merci d'avance :coucou:

Share this post


Link to post
Share on other sites

voila ca doit etre ca:

D|---------------------------------------------------------|

A|---------------------------------------------------------|

F |---------------------------------------------------------| 4X

C|---------------------------------------------------------|

G|12-0-12-12-0-12-12-0--10-8-0--10-8-0--10-8-----|

C|12-0-12-12-0-12-12-0--10-8-0--10-8-0--10-8-----|

Share this post


Link to post
Share on other sites

arf dsl euh c'est ca :

D|---------------------------|-----------------------------------------|

A|---------------------------|-----------------------------------------|

F|----------------------------|-----------------------------------------|

C|---------------------------|-----------------------------------------|

G|-12\--8---12\--8-/15----|-12\--8---12\--8---12\--8\--3--/5----|

C|-12\--8---12\--8-/15----|-12\--8---12\--8---12\--8\--3--/5----|

2x

Share this post


Link to post
Share on other sites

Join the conversation

You can post now and register later. If you have an account, sign in now to post with your account.

Guest
Reply to this topic...

×   Pasted as rich text.   Paste as plain text instead

  Only 75 emoji are allowed.

×   Your link has been automatically embedded.   Display as a link instead

×   Your previous content has been restored.   Clear editor

×   You cannot paste images directly. Upload or insert images from URL.

Sign in to follow this  

×
×
  • Create New...