Jump to content

Tablatures de Rammstein


Recommended Posts

  • Replies 254
  • Created
  • Last Reply

Top Posters In This Topic

ah il est facile! Moi je le fais comme ça

-----------------------------------------------------------------------------------------------------------------------------

-------------------~5---------------~8----------~3---~3-----------~5------------~10--------~12-------------~5------

-----------------------------------------------------------------------------------------------------------------------------

-----------------------------------------------------------------------------------------------------------------------------

-----------------------------------------------------------------------------------------------------------------------------

-----------------------------------------------------------------------------------------------------------------------------

-----------------------------------------------------------------------------------------------------------------------------

-------------~8--------------~3----~3-----------~5-------------0------------~1----------------------------------------

-----------------------------------------------------------------------------------------------------------------------------

-----------------------------------------------------------------------------------------------------------------------------

-----------------------------------------------------------------------------------------------------------------------------

-----------------------------------------------------------------------------------------------------------------------------

sur la corde SI bien sûr... :coucou:

Link to post
Share on other sites
Il joue ou cette partie? oO

dans la version studio à 2min10 (sur iTunes...) par ex, c'est le solo en wah wah....

Pour la tabs de los

D--------------------------------------------------------------------------

A---------------------------------------------------------------------------

F--------------------------------------------------------------------------

C--0----1---3--0----1----3----0-----------------------------------------------

G--0----1---3--5----1----3----5-------------------------------------------- etc...tu vois la suite quoi^^tjr la même

C--0----1---3--0----1----3----0--------------------------------------------- chose...!

Link to post
Share on other sites

Il joue ou cette partie? oO

dans la version studio à 2min10 (sur iTunes...) par ex, c'est le solo en wah wah....

Pour la tabs de los

D--------------------------------------------------------------------------

A---------------------------------------------------------------------------

F--------------------------------------------------------------------------

C--0----1---3--0----1----3----0-----------------------------------------------

G--0----1---3--5----1----3----5-------------------------------------------- etc...tu vois la suite quoi^^tjr la même

C--0----1---3--0----1----3----0--------------------------------------------- chose...!

c'est pas plutot ?

D------------------------------------

A-------------------------------------

F--------------------------------------

C--0----1---3--0----1----3----0----

G--0----1---3--0----1----3----0---

C--0----1---3--0----1----3----0---

Link to post
Share on other sites

nen...moi au début je croyais aussi....! Mais quand tu regarde Los à Nîmes...tu vois clairement au début là que Richard y met le 5 au milieu...et moi j'ai essayé et ça sonne encore mieux!!si tu n'a pas le DVD sous la main...lien sur youtube... et tu regarde a 14 seconde, la tu vois qu'il met le doigt sur le 5!!!J'en suis sur a 100% ;)

Link to post
Share on other sites

son wammie? kesako? :unsure:

ça doit être ça....une pédale Digitech Whammy.....ou nen?

whammy.jpg

Et quelqu'un aurait trouvé le morceau dans le Völkerball, dans Links juste avant que Richard entame le solo..il fait une petite "variante" d'abord avec sa wah-wah....quelqu'un saurait?

Non c'est le bras sur ta guitare

Pour los c'est Richard_Z qui a raison suffit de bien écouter

Link to post
Share on other sites

moi je m'la joue perso comme ca...lol

E---------------------------------------------------------

B---------------------------------------------------------

G---------------------------------------------------------

D--------2----------2-----------2----5--7---8----------

A--------2----------2-----------2----5--7---8----------- et ainsi de suite.....

E-0--0--0----0--0--0----0--0--0----3--5---6-----------

Link to post
Share on other sites
ah il est facile! Moi je le fais comme ça

-----------------------------------------------------------------------------------------------------------------------------

-------------------~5---------------~8----------~3---~3-----------~5------------~10--------~12-------------~5------

-----------------------------------------------------------------------------------------------------------------------------

-----------------------------------------------------------------------------------------------------------------------------

-----------------------------------------------------------------------------------------------------------------------------

-----------------------------------------------------------------------------------------------------------------------------

-----------------------------------------------------------------------------------------------------------------------------

-------------~8--------------~3----~3-----------~5-------------0------------~1----------------------------------------

-----------------------------------------------------------------------------------------------------------------------------

-----------------------------------------------------------------------------------------------------------------------------

-----------------------------------------------------------------------------------------------------------------------------

-----------------------------------------------------------------------------------------------------------------------------

sur la corde SI bien sûr... :coucou:

Complètement faux!

---7h0--9h0--10h0--9h0--7h0--9h0--10h0--9h0--7h0--9h0--10h0--9h0--7h0--9h0--7h0--9h0--

----------------------------------------------------------------------------------------------------------

----------------------------------------------------------------------------------------------------------

----------------------------------------------------------------------------------------------------------

----------------------------------------------------------------------------------------------------------

----------------------------------------------------------------------------------------------------------

X3

ensuite

---7h0--9h0--10h0--9h0--7h0--9h0--10h0--9h0--------------------------------------------

--------------------------------------------------------7h0--8h0--10h0--8h0--5h0--7p8h7--

--------------------------------------------------------------------------------------------------

--------------------------------------------------------------------------------------------------

--------------------------------------------------------------------------------------------------

--------------------------------------------------------------------------------------------------

X1

Désolé je n'ai pas de solo d'Herzeleid.

Link to post
Share on other sites

Il y a un malentendu sur le dit solo, ce que donne rammsteinmomex est le véritable solo de Rammstein...

Par contre ce qu'avait proposer Richard_Z est presque juste :)

----------------------------------------------

----------------------------------------------

----9~----12~---7~---9~----14~---16~--

----------------------------------------------

----7~----10~---5~---7~----12~---14~--

----------------------------------------------

---------------------------------------------

---------------------------------------------

----9~----12~---7~---9~----4~---5~---

---------------------------------------------

----7~----10~---5~---7~----2~---3~---

---------------------------------------------

Je met juste les notes, il suffit d'écouter la chanson pour le jouer... Cette partie est à jouer avec une Wah...

Link to post
Share on other sites

http://911tabs.com/link/?2304250

Voila un lien pour la tab en mode texte, par contre le solo je le joue pas comme il est ecrit sur cette tab, mais comme ca fait pas mal de temps que je l'ai pas joué et que j'ai pas ma gratte en main je pourrai pas te donner ma version :oops: ... Mais celle là est peut-être bonne... J'essaierai de posté tout ca demain soir, quand j'orai ma gratte à la main ;)

Link to post
Share on other sites

Ah j'ai du confondre de solo alors. Essaye comme ça:

------------------------------------------------

-----------------------------------7/9--9--9---

---9--9--9--12--12--12--12\7--7/9--9--9---

------------------------------------------------

------------------------------------------------

------------------------------------------------

-----------------------------------------------------------------------------------------------------------

-----------------------------------------------------------------------------------------------------------

---9--9714--14--14/17--17--17\9--9--9/12--12--\7--7--7--7/9--9--9--4--4--4--4--4--4--5--5---

----------------------------------------------------------------------------------------------------------

---7--7/12--12--12/15--15--15\7--7--7/10--10--\5--5--5--5/7--7--7--2--2--2--2--2--2--3--3---

----------------------------------------------------------------------------------------------------------

Link to post
Share on other sites

Voilà, je cherche juste le début de la tab Amerika de Rammstein. Pour être precis, pas juste le riff du début, mais bien la première partie, lorsque Richard Kruspe joue en même temps que le synthé. Si vous avez Völkerball c'est plus flagrant, puique je viens de me rendre compte qu'il n'y a qu'en live (ou peut etre que sur ce live) que Richard joue ça au début.

Vous voyez de quoi je parle ?

Sinon, regardez cette video, c'est Amerika tirée de Volkerbal :

Richard commence à jouer dès la 28éme seconde de la video, en même temps que le synthé, jusqu'à la 59éme seconde. C'est ce moment là que je cherche en tab.

Je peu choper ça où ? Merci

Link to post
Share on other sites

Join the conversation

You can post now and register later. If you have an account, sign in now to post with your account.

Guest
Reply to this topic...

×   Pasted as rich text.   Paste as plain text instead

  Only 75 emoji are allowed.

×   Your link has been automatically embedded.   Display as a link instead

×   Your previous content has been restored.   Clear editor

×   You cannot paste images directly. Upload or insert images from URL.

×
×
  • Create New...