Jump to content

Tablatures de Rammstein


Recommended Posts

hhuuuuummmm je suis pas sûr :unsure: Parce que quand je regarde le Völkerball, on voit desfois Richard faire les 3cordes à vide, alors qu'ici y en a pas :wacko: Donc après je doute de la justesse du reste. :) Mais merci

quand même!!!! :goooddd:

Je vais essayer de trouver à l'oreille...voir ce que ca donne. :coucou:

Link to post
Share on other sites
  • Replies 254
  • Created
  • Last Reply

Top Posters In This Topic

Voila ve que j'ai pour ce que tu veut Richard_Z

D|-----------------------------------------------------|

A|-----------------------------------------------------|

F|-----------------------------------------------------|

C|-----------------------------------------------------|

G|-0--8---0--8-/3-----0--8---0--8---0--8\--5------|

C|-0--8---0--8-/3-----0--8---0--8---0--8\--5------|

D|--------------------------------------------|

A|--------------------------------------------|

F|--------------------------------------------|

C|--------------------------------------------|

G|-0--8---0--8----0--8---3-3-3-3-5-5-5---|

C|-0--8---0--8----0--8---3-3-3-3-5-5-5---|

et après c'est le solo avec la Whammy...

Link to post
Share on other sites

Pour stein um stein je dirrais plus:

---------------------------------------------------------------

---------------------------------------------------------------

---------------------------------------------------------------

-12-10-12-12-10-12-12-10-10-8-0-10-8-0-10-8-0-10-8-

-12-10-12-12-10-12-12-10-10-8-0-10-8-0-10-8-0-10-8-

-12-10-12-12-10-12-12-10-10-8-0-10-8-0-10-8-0-10-8-

En Drop C.

Link to post
Share on other sites

1ere guitar

D|--------------------------------------|

A|--------------------------------------|

F|*---------3---------------3--/10-----*|

C|*-0-------3-------0-------3--/10-----*|x2

G|--0-------1-------0-------1--/8-------|

C|--0---------------0-------------------|

D|--------------------------------------|

A|--------------------------------------|

F|----------3---------------3-----------|

C|--0-------3-------0-------3-----------|

G|--0-------1-------0-------1-----------|

C|--0---------------0-------------------|

D|--------------------------------------|

A|--------------------------------------|

F|----------3------/10------12----------|

C|--0-------3------/10------12----------|

G|--0-------1------/8-------10----------|

C|--0-----------------------------------|

2eme guitar

D|--------------------------------------|

A|--------------------------------------|

F|*---------3---------------3----------*|

C|*-0-------3-------0-------3---3------*|x2

G|--0-------1-------0-------1---3-------|

C|--0---------------0-----------3-------|

D|--------------------------------------|

A|--------------------------------------|

F|----------3---------------3-----------|

C|--0-------3-------0-------3-----------|

G|--0-------1-------0-------1-----------|

C|--0---------------0-------------------|

D|--------------------------------------|

A|--------------------------------------|

F|----------3---------------------------|

C|--0-------3-------3-------5-----------|

G|--0-------1-------3-------5-----------|

C|--0---------------3-------5-----------|

Voilà pour l'autre refrain.

Link to post
Share on other sites

Salut tout le monde ... Après une guitare (il y a un an), je vien de faire l'acquisition d'une basse et je voulais savoir si quelqu'un pouvait me donner les tablatures du solo de basse de morgenstern au live de nimes du volkerball

Link to post
Share on other sites

Stein um stein:

verse

1st guitar

D|-------------------|

A|-------------------|

F|*-------------3---*|

C|*-0---------3---3-*|x4

G|----------1--------|

C|--0----------------|

D|-------------------|

A|-------------------|

F|--------------3----|

C|--3---------3---3--|

G|----------1--------|

C|-------------------|

D|-------------------|

A|-------------------|

F|*-------------3---*|

C|*-0---------3---3-*|x10

G|----------1--------|

C|--0----------------|

D|-------------------|

A|-------------------|

F|-------------------|

C|------3-------5----|

G|----3---3---5---5--|

C|--3-------5--------|

Chorus

D|---------------------------------------------|

A|---------------------------------------------|

F|*-------------------------------------------*|

C|*-12-10-12-12-10-0-12-10-10-8-0-10-8-0-10-8-*|x4

G|--12-10-12-12-10-0-12-10-10-8-0-10-8-0-10-8--|

C|--12-10-12-12-10-0-12-10-10-8-0-10-8-0-10-8--|

Bridge

D|--------------------------------------|

A|--------------------------------------|

F|*------------------------------------*|

C|*-0-------8-------0-------8---3------*|x2

G|--0-------8-------0-------8---3-------|

C|--0-------8-------0-------8---3-------|

D|--------------------------------------|

A|--------------------------------------|

F|--------------------------------------|

C|--0-------8-------0-------8-----------|

G|--0-------8-------0-------8-----------|

C|--0-------8-------0-------8-----------|

D|--------------------------------------|

A|--------------------------------------|

F|--------------------------------------|

C|--0-------8-------3-------5-----------|

G|--0-------8-------3-------5-----------|

C|--0-------8-------3-------5-----------|

finale

D|-----------------------------------------|

A|-----------------------------------------|

F|*----------------------------------------|

C|*----------------------------------------|

G|-----------------------------------------|

C|--12-0-0-12-0-0-12-0-12-0-0-12-0-0-12-0--|

D|--------------------------------------|

A|--------------------------------------|

F|-------------------------------------*|

C|-------------------------------------*|

G|--------------------------------------|

C|--10-8-8-10-8-8-10-8-8-7-7-7-7-7-7-0--|

Je l'ai testé et ca me semble identique à la version studio

Link to post
Share on other sites
  • 2 weeks later...

---------------------------------------|

---------------------------------------|

---------------------------------------|

---------------------------------------| x3

--3-5-----6-5-----3-5---3-5---6-5--|

------0-0-----0-0-----0-----0-------|

---------------------------------------|

---------------------------------------|

---------------------------------------|

---------------------------------------|

--3-5-----6-5-----3-5---3-5---------|

------0-0-----0-0-----0------3-3-3--|

Link to post
Share on other sites
---------------------------------------|

---------------------------------------|

---------------------------------------|

---------------------------------------| x3

--3-5-----6-5-----3-5---3-5---6-5--|

------0-0-----0-0-----0-----0-------|

---------------------------------------|

---------------------------------------|

---------------------------------------|

---------------------------------------|

--3-5-----6-5-----3-5---3-5---------|

------0-0-----0-0-----0------3-3-3--|

(En drop D)

Link to post
Share on other sites

si moi...... :D:)

D|---------------------------------------------------------------------------

A|---------------------------------------------------------------------------

F|---------------------------------------------------------------------------

C|--3-0-----3-0-3-0----3-0-------3-0-3-0-0-0----------------------------

G|--3-0-----3-0-3-0----3-0-------3-0-3-0-0-0---------------------------

C|--3-0-----3-0-3-0----3-0-------3-0-3-0-0-0---------------------------

D|-----------------------------------------------------------------------------

A|--------------------------------------------------------------------------------

F|--6-6-6-6-6-6-6-6-6-6-6-6-6--10-10-10-10-10-10-10-10-10-10-10-10-10--------

C|--x-x-x-x-x-x-x-x-x-x-x-x-x--x--x--x--x--x--x--x--x--x--x--x--x--x---------

G|--4-4-4-4-4-4-4-4-4-4-4-4-4--8--8--8--8--8--8--8--8--8--8--8--8--8---------

C|---------------------------------------------------------------------------

D|---------------------------------------------------------------------------

A|---------------------------------------------------------------------------

F|---------------------------------------------------------------------------

C|--12-12-12-12-12-12-12-12-11-11-11-11-11-11-11-11--------------------------

G|--12-12-12-12-12-12-12-12-11-11-11-11-11-11-11-11--------------------------

C|--12-12-12-12-12-12-12-12-11-11-11-11-11-11-11-11--------------------------

D|---------------------------------------------------------------------------

A|---------------------------------------------------------------------------

F|---------------------------------------------------------------------------

C|--7-7-7-7-7-7-7-7-7-7-7-7-7-7-7-7--8-8-8-8-8-8-8-8-8-8-8-8-8-8-8-8-8-------

G|--7-7-7-7-7-7-7-7-7-7-7-7-7-7-7-7--8-8-8-8-8-8-8-8-8-8-8-8-8-8-8-8-8-------

C|--7-7-7-7-7-7-7-7-7-7-7-7-7-7-7-7--8-8-8-8-8-8-8-8-8-8-8-8-8-8-8-8-8-------

D|---------------------------------------------------------------------------

A|---------------------------------------------------------------------------

F|---------------------------------------------------------------------------

C|--5-5-5-5-5-5-5-5-5-5-5-5-5-5-5-5-----------------------------------------

G|--5-5-5-5-5-5-5-5-5-5-5-5-5-5-5-5------------------------------------------

C|--5-5-5-5-5-5-5-5-5-5-5-5-5-5-5-5------------------------------------------

D|---------------------------------------------------------------------------

A|---------------------------------------------------------------------------

F|---------------------------------------------------------------------------

C|--8-8-8-8-8-8-8-8--10-10-10-10-10-10-10-10---------------------------------

G|--8-8-8-8-8-8-8-8--10-10-10-10-10-10-10-10---------------------------------

C|--8-8-8-8-8-8-8-8--10-10-10-10-10-10-10-10---------------------------------

D|---------------------------------------------------------------------------

A|---------------------------------------------------------------------------

F|---------------------------------------------------------------------------

C|--3p0-0-0-0-0-0-0-0-0-3p0-3p0-0-0-3p0-0-0-0-0-0-0-0-0-3p0-0-0----------------

G|--3p0-0-0-0-0-0-0-0-0-3p0-3p0-0-0-3p0-0-0-0-0-0-0-0-0-3p0-0-0--------------

C|--3p0-0-0-0-0-0-0-0-0-3p0-3p0-0-0-3p0-0-0-0-0-0-0-0-0-3p0-0-0--------------

D|---------------------------------------------------------------------------

A|---------------------------------------------------------------------------

F|---------------------------------------------------------------------------

C|--3-0----3-0-3-0-0-0-3-0---------------------------------------------------

G|--3-0----3-0-3-0-0-0-3-0---------------------------------------------------

C|--3-0----3-0-3-0-0-0-3-0---------------------------------------------------

:)

Link to post
Share on other sites
  • 3 weeks later...

Join the conversation

You can post now and register later. If you have an account, sign in now to post with your account.

Guest
Reply to this topic...

×   Pasted as rich text.   Paste as plain text instead

  Only 75 emoji are allowed.

×   Your link has been automatically embedded.   Display as a link instead

×   Your previous content has been restored.   Clear editor

×   You cannot paste images directly. Upload or insert images from URL.

×
×
  • Create New...